Friday, January 22, 2016

Run Forever - Big Vacation



GUITAR TAB (Written by me)

Standard Tuning

Intro/Verse:

e ------------
B ------------
G -9----------
D -9--5--2----
A -7--4--3----
E ----5--3----


Pre-Chorus

And If the Fuel Runs Out.... Over the ocean and noone...

e -------------              e --------------
B -------------              B ----3--1------
G -------------              G ----2---------
D -2--2--2--2--              D -------2---2--
A -2--3--2--3--              A -2---------3--
E -0--3--0--3--              E -3---------3--

It would be just as well.... Then I could have that life too...


e -------------              e ----------
B -------1-----              B ----------
G -------------              G ----------
D -2--2--2--2--              D -2-----2--
A -2--3-----3--              A -2--2--3--
E -0--3-----3--              E -0--3--3--

Bridge
Spend another night in strange kinds of company...

e ---------------
B ----3----------
G ----2----------
D -2-----2-------
A -2-----3--2----
E -0-----3--3----

Outro
Take for granted everyone around you...

e -------------------
B -------------------
G -------------------
D -2--x--2--x--2--2--
A -3--x--3--x--2--3--
E -3--x--3--x-----3--


LYRICS:

I felt just like everyone
When I grew so bored with my life
I got a job to save for a big vacation
Couldn't find someplace I liked

But if the plane went down
Or if the fuel runs out
Over the ocean and no one was ever found
It would be just as well as what I paid for

You sound like a salesman
While pitching your sincerity to me
We shake hands but there's no time to listen
You say you're glad we got to meet

And in a crowded room
I watch the way you move
Confident and coiled if I follow everything you do
Then I could have that life too

Spend another night in strange kinds of company
Try to clean my head but you're calling me
Something that you said burned into memory
Take for granted everyone around you

No comments:

Post a Comment